IndexProfielRegistrerenHelpActive TopicsSearch Inloggen
Index / Heavy Metal Nieuw Topic Post Reply
Dit topic is 7 pagina's lang: 1 2 3 4 5 6 7
Auteur:
Topic : Skepticism Vorige pagina | Volgende pagina
Claw
GRAFSTEEN DIAGRAMMEN!
Usericon van Claw
Posted 16-07-2003 14:22 by Claw Wijzig reactieProfiel van ClawQuote dit berichthttp://www.aardtmann.tk/

Euhm ja. Het liveconcert had erg veel sfeer. Hard lachen was echter zeker niet de eerste emotie die bij je op zou komen als je erbij was. Tenzij je de muziek natuurlijk totaal niet leuk vind, maar dan zou je hier natuurlijk niet posten he.


Death Metal heerscht! Check de nieuwe Suffocation en Prostitute Disfigurement!!! (Veel beter dan Doom Metal )


~Narsil
Usericon van ~Narsil
Posted 16-07-2003 14:23 by ~Narsil Wijzig reactieProfiel van ~NarsilQuote dit berichthttp://www.myspace.com/phobos_kim

Ik ben net Farmakon aan het luisteren... en moet daar zometeen mijn uitgebreid schriftelijk oordeel over vellen.


Claw
GRAFSTEEN DIAGRAMMEN!
Usericon van Claw
Posted 16-07-2003 14:24 by Claw Wijzig reactieProfiel van ClawQuote dit berichthttp://www.aardtmann.tk/

quote:
Op 16 juli 2003 14:23 schreef ~Narsil het volgende:
Ik ben net Farmakon aan het luisteren... en moet daar zometeen mijn uitgebreid schriftelijk oordeel over vellen.


Ga je hem recenseren voor de frontpage van ZM?


Death Metal heerscht! Check de nieuwe Suffocation en Prostitute Disfigurement!!! (Veel beter dan Doom Metal )


~Narsil
Usericon van ~Narsil
Posted 16-07-2003 14:25 by ~Narsil Wijzig reactieProfiel van ~NarsilQuote dit berichthttp://www.myspace.com/phobos_kim

Niet voor ZM nee...
Wel raar dat die promo's nu pas komen, die CD is blijkbaar al uit van 18 april...


Chelman
Krijg de bloemetjes
Usericon van Chelman
Posted 16-07-2003 14:27 by Chelman Wijzig reactieProfiel van ChelmanQuote dit bericht

quote:
Op 16 juli 2003 14:13 schreef Claw het volgende:
Ik heb die van mij gewoon bij Displeased vandaan, en het is op een Russich label "IROND" uitgebracht. Is dat niet gewoon die versie?


Het is idd op IROND. Maar al die Russische uitgaves hebben ergens een tekstje staan van: Licensed for sale in Russia, CIS and Baltic States only. Gekocht voor $6.66


KOSOVO JE SRBIJA! SVETA SRPSKA ZEMLJA !


Claw
GRAFSTEEN DIAGRAMMEN!
Usericon van Claw
Posted 16-07-2003 14:27 by Claw Wijzig reactieProfiel van ClawQuote dit berichthttp://www.aardtmann.tk/

Neuh ongeveer 1 Mei meen ik. Maar waar komt die review dan wel?

Ik heb nog weinig goeie reviews gezien van die cd, zelfs die van Doom-Metal.com vond ik niet om over naar huis te schrijven, dus ik ben wel benieuwd.


Death Metal heerscht! Check de nieuwe Suffocation en Prostitute Disfigurement!!! (Veel beter dan Doom Metal )


Claw
GRAFSTEEN DIAGRAMMEN!
Usericon van Claw
Posted 16-07-2003 14:29 by Claw Wijzig reactieProfiel van ClawQuote dit berichthttp://www.aardtmann.tk/

quote:
Op 16 juli 2003 14:27 schreef Chelman het volgende:
Het is idd op IROND. Maar al die Russische uitgaves hebben ergens een tekstje staan van: Licensed for sale in Russia, CIS and Baltic States only. Gekocht voor $6.66


"For sales in the territory of Russia, Belarus, Ukraine and Baltic States only."

Die heb ik dus ook.


Death Metal heerscht! Check de nieuwe Suffocation en Prostitute Disfigurement!!! (Veel beter dan Doom Metal )


Chelman
Krijg de bloemetjes
Usericon van Chelman
Posted 16-07-2003 14:31 by Chelman Wijzig reactieProfiel van ChelmanQuote dit bericht

quote:
Op 16 juli 2003 14:29 schreef Claw het volgende:
"For sales in the territory of Russia, Belarus, Ukraine and Baltic States only."

Die heb ik dus ook.


Ik heb nog meer van dit soort plaatjes. De leukste is Callenish Circle: Nederlandse band, russische uitgave, gekocht in de VS, ik zit in Nederland. Wondere wereld van het internet.........


KOSOVO JE SRBIJA! SVETA SRPSKA ZEMLJA !


~Narsil
Usericon van ~Narsil
Posted 16-07-2003 14:34 by ~Narsil Wijzig reactieProfiel van ~NarsilQuote dit berichthttp://www.myspace.com/phobos_kim

quote:
Op 16 juli 2003 14:27 schreef Claw het volgende:
Neuh ongeveer 1 Mei meen ik. Maar waar komt die review dan wel?

Ik heb nog weinig goeie reviews gezien van die cd, zelfs die van Doom-Metal.com vond ik niet om over naar huis te schrijven, dus ik ben wel benieuwd.


In de bio staat 18 april.
Komt in Mindview, en maak het me vooral nog wat lastiger, deze CD is echt niet simpel om te reviewen... *zucht*


Ronster
Speed kills... hell yeah!!
Usericon van Ronster
Posted 16-07-2003 14:55 by Ronster Wijzig reactieProfiel van RonsterQuote dit berichthttp://www.callenish-circle.com

quote:
Op 16 juli 2003 14:31 schreef Chelman het volgende:
Ik heb nog meer van dit soort plaatjes. De leukste is Callenish Circle: Nederlandse band, russische uitgave, gekocht in de VS, ik zit in Nederland. Wondere wereld van het internet.........


Hey.... wel grappig... waar heb je die besteld?? eens ff opzoeken. daar zal metal blade blij mee zijn.


X-Act
ZM-virus
Usericon van X-Act
Posted 16-07-2003 15:11 by X-Act Wijzig reactieProfiel van X-ActQuote dit bericht

quote:
Op 16 juli 2003 14:34 schreef ~Narsil het volgende:
Komt in Mindview, en maak het me vooral nog wat lastiger, deze CD is echt niet simpel om te reviewen... *zucht*

en waag het niet een negatief woord te schrijven over deze parel


In der Beschränkung zeigt sich der Meister !


~Narsil
Usericon van ~Narsil
Posted 16-07-2003 15:11 by ~Narsil Wijzig reactieProfiel van ~NarsilQuote dit berichthttp://www.myspace.com/phobos_kim

quote:
Op 16 juli 2003 15:11 schreef X-Act het volgende:
en waag het niet een negatief woord te schrijven over deze parel



Kerel, ik zit just te twijfelen tussen goud en platina...


X-Act
ZM-virus
Usericon van X-Act
Posted 16-07-2003 15:24 by X-Act Wijzig reactieProfiel van X-ActQuote dit bericht

quote:
Op 16 juli 2003 15:11 schreef ~Narsil het volgende:
Kerel, ik zit just te twijfelen tussen goud en platina...

haha
vergeet je review hier straks niet te posten he , ben zwaar benieuwd !


In der Beschränkung zeigt sich der Meister !


~Narsil
Usericon van ~Narsil
Posted 16-07-2003 15:24 by ~Narsil Wijzig reactieProfiel van ~NarsilQuote dit berichthttp://www.myspace.com/phobos_kim

Dat mag niet voor hij uit is


Voice Of Doom
kotsende chaoot
Usericon van Voice Of Doom
Posted 16-07-2003 17:06 by Voice Of Doom Wijzig reactieProfiel van Voice Of DoomQuote dit bericht

quote:
Op 16 juli 2003 15:24 schreef ~Narsil het volgende:
Dat mag niet voor hij uit is
Er mag wel meer niet! Gewoon doen!


I've got no trust to give, I've got no heart to break, Nothing for me to fucking lose, because I never had a fucking thing


NolthuarII
Tijd maak je!
Usericon van NolthuarII
Posted 18-07-2003 17:53 by NolthuarII Wijzig reactieProfiel van NolthuarIIQuote dit bericht

quote:
Op 16 juli 2003 14:02 schreef Claw het volgende:
Heb je de Lead & Aether re-release met bonus track "Aes"? Zo nee: dan raad ik je aan om die mini-cd een keer te horen te krijgen.



Ik heb de originele versie van red stream. http://www.evilmusic.com/reviews/skepticism/454.html

deze dan. Die Aes is dus ook aanraadbaar?




Claw
GRAFSTEEN DIAGRAMMEN!
Usericon van Claw
Posted 18-07-2003 18:48 by Claw Wijzig reactieProfiel van ClawQuote dit berichthttp://www.aardtmann.tk/

quote:
Op 18 juli 2003 17:53 schreef NolthuarII het volgende:
Ik heb de originele versie van red stream. http://www.evilmusic.com/reviews/skepticism/454.html

deze dan. Die Aes is dus ook aanraadbaar?



Jazeker! (de hypotheker).

Aes vind ik na 'The March and the Stream' het beste nummer van Skepticism.


Death Metal heerscht! Check de nieuwe Suffocation en Prostitute Disfigurement!!! (Veel beter dan Doom Metal )


NolthuarII
Tijd maak je!
Usericon van NolthuarII
Posted 20-07-2003 21:37 by NolthuarII Wijzig reactieProfiel van NolthuarIIQuote dit bericht

Ik vind de lijn tussen spekticism als doom metal en sommige "ambient" acts best dun. Wanneer noem je dit soort muziek funeral doom en wanneer "ambient" (bij gebrek aan een betere benadering). Het ligt natuurlijk aan de sfeer die het erbij geeft. Hmmz...


Claw
GRAFSTEEN DIAGRAMMEN!
Usericon van Claw
Posted 21-07-2003 11:56 by Claw Wijzig reactieProfiel van ClawQuote dit berichthttp://www.aardtmann.tk/

Die lijn is minder dun als je naar hun eerste demo en cd luistert. Daar spelen ze nog met een standaard metal line-up.

En de zware, distorted gitaren blijven aanwezig, dus de naam (Funeral) Doom Metal dragen ze terecht imo.


Death Metal heerscht! Check de nieuwe Suffocation en Prostitute Disfigurement!!! (Veel beter dan Doom Metal )


X-Act
ZM-virus
Usericon van X-Act
Posted 28-07-2003 2:29 by X-Act Wijzig reactieProfiel van X-ActQuote dit bericht

quote:
Op 16 juli 2003 15:11 schreef ~Narsil het volgende:
Kerel, ik zit just te twijfelen tussen goud en platina...

en het is platina geworden (terecht imho)


In der Beschränkung zeigt sich der Meister !


~Narsil
Usericon van ~Narsil
Posted 28-07-2003 14:44 by ~Narsil Wijzig reactieProfiel van ~NarsilQuote dit berichthttp://www.myspace.com/phobos_kim



Hoolie99
Usericon van Hoolie99
Posted 20-08-2003 15:11 by Hoolie99 Wijzig reactieProfiel van Hoolie99Quote dit bericht

quote:
Op 16 juli 2003 14:55 schreef Ronster het volgende:
Hey.... wel grappig... waar heb je die besteld?? eens ff opzoeken. daar zal metal blade blij mee zijn.


Ik zeg : A SALE IS A SALE!


!!! THE SIGN IS ON !!!


JFrost
dead
Usericon van JFrost
Posted 31-10-2003 17:41 by JFrost Wijzig reactieProfiel van JFrostQuote dit bericht

Voor de mensen die van goede muziek houden en zo nu en dan een gitaar hanteren:


Skepticism - THE ORGANIUM
Tabbed by: Harm op den Akker (h.opdenakker@student.utwente.nl)
For: Guitar (E-tuning)
--------------------------------------------------------------

Riff 1 (00:16-01:09) (5x)
e]---------[
B]---------[
G]---------[
D]---------[
A]-3---6-5-[
E]-1---4-3-[


Riff 2 (01:18-03:00) (4x)
e]---------------------|----------------------[
B]---------------------|----------------------[
G]---------------------|----------------------[
D]---------------------|----------------------[
A]-9---7-9---7-9---7-9-|--5---3-5---3-5---3-5-[
E]-7---5-7---5-7---5-7-|--3---1-3---1-3---1-3-[


Riff 3 (03:01-04:47) (3x)
e]-----------------------------|----------------------[
B]-----------------------------|----------------------[
G]-----------------------------|----------------------[
D]-----------------------------|----------------------[
A]-9--11--12--14--12--11--9--7-|--5---3-5---3-5---3-5-[
E]-7---9--10--12--10---9--7--5-|--3---1-3---1-3---1-3-[
\\___________________________/ ____________________/
2x 1x


Riff 1 (04:48-05:17) (3x)


Riff 4 (05:20-06:12) (5x)
e]-----------------|------[
B]-----------------|------[
G]-----------------|------[
D]-----------------|------[
A]-5--3-3--5--8--7-|-3--5-[
E]-3--1-1--3--6--5-|-1--3-[
\\_____/
Play only on last repeat.

--------------------------------------------------------------

Skepticism - Aes Solo (21:45-23:47)
Tabbed by: Harm op den Akker (h.opdenakker@student.utwente.nl)
For: Guitar (E-tuning)
----------------------------------

[21:45-21:59]
e]--------------------------[
B]--------------------------[
G]--------------------------[
D]--2--4--5--4--5--4--2--1--[
A]--------------------------[
E]--------------------------[

[22:00-22:13]
e]--------------------------------[
B]--------------------------------[
G]--------------------------3--3--[
D]--2--4--5--4--5--4--2--1--------[
A]--------------------------------[
E]--------------------------------[

[22:14-22:28]
e]--------------------------------[
B]--------------------------------[
G]-----------------2-----2--3-----[
D]--2--4--5--4--5-----5-----------[
A]--------------------------------[
E]--------------------------------[

[22:29-22:43]
e]-----------------------------------------------[
B]-----------------------------4--4-----4--7--4--[
G]-----------------2-----2--3--------3-----------[
D]--2--4--5--4--5-----5--------------------------[
A]-----------------------------------------------[
E]-----------------------------------------------[

[22:44-22:58]
e]--------------------------|---7--8--7--5--3--2--0--|--------------------[
B]--5--5--7--8--10--8--7--5-|-5----------------------|--4-----4-----7--4--[
G]--------------------------|------------------------|-----3-----3--------[
D]--------------------------|------------------------|--------------------[
A]--------------------------|------------------------|--------------------[
E]--------------------------|------------------------|--------------------[

[22:59-23:13]
e]-----------------------|-----------------------------------------------[
B]--5--7--8--10--8--7--5-|-7--8--10--12--13--12--10--4----4--7--4--7--4--[
G]-----------------------|------------------------------3----------------[
D]-----------------------|-----------------------------------------------[
A]-----------------------|-----------------------------------------------[
E]-----------------------|-----------------------------------------------[

[23:14-23:28]
e]--------------------------|-----------------------------------------------------[
B]--5--5--7--8--10--8--7--5-|-5--5--7--8--8--10--8--7--5--4--4-----4--7--4--7--4--[
G]--------------------------|-----------------------------------3-----------------[
D]--------------------------|-----------------------------------------------------[
A]--------------------------|-----------------------------------------------------[
E]--------------------------|-----------------------------------------------------[

[23:29-23:47]
e]----------------------------------------------6-----7--[
B]--5--7--8--10--12--13--12--10--4-----4--7--4-----7-----[
G]----------------------------------3--------------------[
D]-------------------------------------------------------[
A]-------------------------------------------------------[
E]-------------------------------------------------------[


Have fun

[Dit bericht is gewijzigd door JFrost op 31-10-2003 17:42]


this user is dead


Ebullition
Usericon van Ebullition
Posted 31-10-2003 19:01 by Ebullition Wijzig reactieProfiel van EbullitionQuote dit berichthttp://www.metalprovider.com/ved_buens_ende

quote:
Op 31 oktober 2003 17:41 schreef JFrost het volgende:

Have fun


Met Skeptisicm? Fun is toch niet helemaal het woord wat ik zou gebruiken in associatie met hun muziek.



~ We are a virus with shoes


X-Act
ZM-virus
Usericon van X-Act
Posted 31-10-2003 19:12 by X-Act Wijzig reactieProfiel van X-ActQuote dit bericht

quote:
Op 31 oktober 2003 17:41 schreef JFrost het volgende:
Voor de mensen die van goede muziek houden en zo nu en dan een gitaar hanteren:


pak aan dude
zal uw tabs een dezer dagen eens testen


In der Beschränkung zeigt sich der Meister !


Dit topic is 7 pagina's lang: 1 2 3 4 5 6 7
Index / Heavy Metal Active topics Nieuw topic Post reply Vorige pagina | Volgende pagina
http://www.zwaremetalen.com
Powered by ZwareMetalen [PHP] Forum Versie 2.15.0
Optimized for Internet Explorer 6.0 SP2+ / Opera 8+ / Firefox 1+
© 2001 - 2021 Stichting ZwareMetalen